ISO-10303-21;
HEADER;
FILE_DESCRIPTION(('Creo Elements/Direct Modeling STEP Export'),'2;1');
FILE_NAME('C:/temp/0lndrr04ol4nhj22948/0lndrr04ol4nhj32948',
'2019-01-10T 9:30:12',(''),(''),
'PTC Creo Elements/Direct Modeling STEP processor for AP214 (Solid Model
)',
'PTC Creo Elements/Direct Modeling 19.0B  21-Mar-2015 (C) Parametric Tec
hnology GmbH','');
FILE_SCHEMA(('AUTOMOTIVE_DESIGN { 1 0 10303 214 1 1 1 1 }'));
ENDSEC;
DATA;
#10=CARTESIAN_POINT('',(0.,0.,0.));
#20=DIRECTION('',(0.,0.,1.));
#30=DIRECTION('',(1.,0.,0.));
#40=AXIS2_PLACEMENT_3D('',#10,#20,#30);
#50=PLANE('',#40);
#60=CARTESIAN_POINT('',(39.,54.,0.));
#70=DIRECTION('',(0.,0.,-1.));
#80=DIRECTION('',(-1.,0.,0.));
#90=AXIS2_PLACEMENT_3D('',#60,#70,#80);
#100=CIRCLE('',#90,2.03867513459481);
#110=CARTESIAN_POINT('',(41.0386751345948,54.,0.));
#120=VERTEX_POINT('',#110);
#130=CARTESIAN_POINT('',(36.9613248654052,54.,0.));
#140=VERTEX_POINT('',#130);
#150=EDGE_CURVE('',#120,#140,#100,.T.);
#160=ORIENTED_EDGE('',*,*,#150,.F.);
#170=EDGE_CURVE('',#140,#120,#100,.T.);
#180=ORIENTED_EDGE('',*,*,#170,.F.);
#190=EDGE_LOOP('',(#180,#160));
#200=FACE_BOUND('',#190,.T.);
#210=CARTESIAN_POINT('',(39.,54.,0.));
#220=DIRECTION('',(0.,0.,1.));
#230=DIRECTION('',(1.,0.,0.));
#240=AXIS2_PLACEMENT_3D('',#210,#220,#230);
#250=CIRCLE('',#240,3.25);
#260=CARTESIAN_POINT('',(42.25,54.,0.));
#270=VERTEX_POINT('',#260);
#280=CARTESIAN_POINT('',(35.75,54.,0.));
#290=VERTEX_POINT('',#280);
#300=EDGE_CURVE('',#270,#290,#250,.T.);
#310=ORIENTED_EDGE('',*,*,#300,.F.);
#320=EDGE_CURVE('',#290,#270,#250,.T.);
#330=ORIENTED_EDGE('',*,*,#320,.F.);
#340=EDGE_LOOP('',(#330,#310));
#350=FACE_OUTER_BOUND('',#340,.T.);
#360=ADVANCED_FACE('',(#200,#350),#50,.F.);
#370=CARTESIAN_POINT('',(39.,54.,0.));
#380=DIRECTION('',(0.,0.,-1.));
#390=DIRECTION('',(-1.,0.,0.));
#400=AXIS2_PLACEMENT_3D('',#370,#380,#390);
#410=CONICAL_SURFACE('',#400,2.03867513459481,0.523598775598296);
#420=CARTESIAN_POINT('',(36.9613248654052,54.,0.));
#430=DIRECTION('',(-0.499999999999998,0.,-0.86602540378444));
#440=VECTOR('',#430,4.07735026918964);
#450=LINE('',#420,#440);
#460=CARTESIAN_POINT('',(37.25,54.,0.5));
#470=VERTEX_POINT('',#460);
#480=EDGE_CURVE('',#470,#140,#450,.T.);
#490=ORIENTED_EDGE('',*,*,#480,.T.);
#500=CARTESIAN_POINT('',(39.,54.,0.5));
#510=DIRECTION('',(0.,0.,-1.));
#520=DIRECTION('',(-1.,0.,0.));
#530=AXIS2_PLACEMENT_3D('',#500,#510,#520);
#540=CIRCLE('',#530,1.75);
#550=CARTESIAN_POINT('',(40.75,54.,0.5));
#560=VERTEX_POINT('',#550);
#570=EDGE_CURVE('',#470,#560,#540,.T.);
#580=ORIENTED_EDGE('',*,*,#570,.F.);
#590=CARTESIAN_POINT('',(41.0386751345948,54.,0.));
#600=DIRECTION('',(0.499999999999998,0.,-0.86602540378444));
#610=VECTOR('',#600,4.07735026918964);
#620=LINE('',#590,#610);
#630=EDGE_CURVE('',#560,#120,#620,.T.);
#640=ORIENTED_EDGE('',*,*,#630,.F.);
#650=ORIENTED_EDGE('',*,*,#170,.T.);
#660=EDGE_LOOP('',(#650,#640,#580,#490));
#670=FACE_OUTER_BOUND('',#660,.T.);
#680=ADVANCED_FACE('',(#670),#410,.F.);
#690=CARTESIAN_POINT('',(39.,54.,0.));
#700=DIRECTION('',(0.,0.,-1.));
#710=DIRECTION('',(-1.,0.,0.));
#720=AXIS2_PLACEMENT_3D('',#690,#700,#710);
#730=CONICAL_SURFACE('',#720,2.03867513459481,0.523598775598296);
#740=ORIENTED_EDGE('',*,*,#150,.T.);
#750=ORIENTED_EDGE('',*,*,#630,.T.);
#760=EDGE_CURVE('',#560,#470,#540,.T.);
#770=ORIENTED_EDGE('',*,*,#760,.F.);
#780=ORIENTED_EDGE('',*,*,#480,.F.);
#790=EDGE_LOOP('',(#780,#770,#750,#740));
#800=FACE_OUTER_BOUND('',#790,.T.);
#810=ADVANCED_FACE('',(#800),#730,.F.);
#820=CARTESIAN_POINT('',(39.,54.,17.7));
#830=DIRECTION('',(0.,0.,1.));
#840=DIRECTION('',(1.,0.,0.));
#850=AXIS2_PLACEMENT_3D('',#820,#830,#840);
#860=TOROIDAL_SURFACE('',#850,2.95,0.3);
#870=CARTESIAN_POINT('',(41.95,54.,17.7));
#880=DIRECTION('',(0.,1.,0.));
#890=DIRECTION('',(1.,0.,0.));
#900=AXIS2_PLACEMENT_3D('',#870,#880,#890);
#910=CIRCLE('',#900,0.3);
#920=CARTESIAN_POINT('',(41.95,54.,18.));
#930=VERTEX_POINT('',#920);
#940=CARTESIAN_POINT('',(42.25,54.,17.7));
#950=VERTEX_POINT('',#940);
#960=EDGE_CURVE('',#930,#950,#910,.T.);
#970=ORIENTED_EDGE('',*,*,#960,.F.);
#980=CARTESIAN_POINT('',(39.,54.,17.7));
#990=DIRECTION('',(0.,0.,1.));
#1000=DIRECTION('',(1.,0.,0.));
#1010=AXIS2_PLACEMENT_3D('',#980,#990,#1000);
#1020=CIRCLE('',#1010,3.25);
#1030=CARTESIAN_POINT('',(35.75,54.,17.7));
#1040=VERTEX_POINT('',#1030);
#1050=EDGE_CURVE('',#1040,#950,#1020,.T.);
#1060=ORIENTED_EDGE('',*,*,#1050,.T.);
#1070=CARTESIAN_POINT('',(36.05,54.,17.7));
#1080=DIRECTION('',(0.,-1.,0.));
#1090=DIRECTION('',(-1.,0.,0.));
#1100=AXIS2_PLACEMENT_3D('',#1070,#1080,#1090);
#1110=CIRCLE('',#1100,0.3);
#1120=CARTESIAN_POINT('',(36.05,54.,18.));
#1130=VERTEX_POINT('',#1120);
#1140=EDGE_CURVE('',#1130,#1040,#1110,.T.);
#1150=ORIENTED_EDGE('',*,*,#1140,.T.);
#1160=CARTESIAN_POINT('',(39.,54.,18.));
#1170=DIRECTION('',(0.,0.,1.));
#1180=DIRECTION('',(1.,0.,0.));
#1190=AXIS2_PLACEMENT_3D('',#1160,#1170,#1180);
#1200=CIRCLE('',#1190,2.95);
#1210=EDGE_CURVE('',#1130,#930,#1200,.T.);
#1220=ORIENTED_EDGE('',*,*,#1210,.F.);
#1230=EDGE_LOOP('',(#1220,#1150,#1060,#970));
#1240=FACE_OUTER_BOUND('',#1230,.T.);
#1250=ADVANCED_FACE('',(#1240),#860,.T.);
#1260=CARTESIAN_POINT('',(39.,54.,14.0473720558371));
#1270=DIRECTION('',(0.,0.,-1.));
#1280=DIRECTION('',(0.,-1.,0.));
#1290=AXIS2_PLACEMENT_3D('',#1260,#1270,#1280);
#1300=CONICAL_SURFACE('',#1290,3.4,1.0471975511966);
#1310=CARTESIAN_POINT('',(39.,54.,15.));
#1320=DIRECTION('',(0.,0.,-1.));
#1330=DIRECTION('',(0.,-1.,0.));
#1340=AXIS2_PLACEMENT_3D('',#1310,#1320,#1330);
#1350=CIRCLE('',#1340,1.75);
#1360=CARTESIAN_POINT('',(39.,55.75,15.));
#1370=VERTEX_POINT('',#1360);
#1380=CARTESIAN_POINT('',(40.75,54.,15.));
#1390=VERTEX_POINT('',#1380);
#1400=EDGE_CURVE('',#1370,#1390,#1350,.T.);
#1410=ORIENTED_EDGE('',*,*,#1400,.T.);
#1420=CARTESIAN_POINT('',(39.,57.4,14.0473720558371));
#1430=DIRECTION('',(0.,0.866025403784438,-0.500000000000001));
#1440=VECTOR('',#1430,3.92598183048946);
#1450=LINE('',#1420,#1440);
#1460=CARTESIAN_POINT('',(39.,54.,16.0103629710818));
#1470=VERTEX_POINT('',#1460);
#1480=EDGE_CURVE('',#1470,#1370,#1450,.T.);
#1490=ORIENTED_EDGE('',*,*,#1480,.T.);
#1500=CARTESIAN_POINT('',(39.,50.6,14.0473720558371));
#1510=DIRECTION('',(0.,-0.866025403784438,-0.500000000000001));
#1520=VECTOR('',#1510,3.92598183048946);
#1530=LINE('',#1500,#1520);
#1540=CARTESIAN_POINT('',(39.,52.25,15.));
#1550=VERTEX_POINT('',#1540);
#1560=EDGE_CURVE('',#1470,#1550,#1530,.T.);
#1570=ORIENTED_EDGE('',*,*,#1560,.F.);
#1580=EDGE_CURVE('',#1390,#1550,#1350,.T.);
#1590=ORIENTED_EDGE('',*,*,#1580,.T.);
#1600=EDGE_LOOP('',(#1590,#1570,#1490,#1410));
#1610=FACE_OUTER_BOUND('',#1600,.T.);
#1620=ADVANCED_FACE('',(#1610),#1300,.F.);
#1630=CARTESIAN_POINT('',(39.,54.,0.));
#1640=DIRECTION('',(0.,0.,-1.));
#1650=DIRECTION('',(1.,0.,0.));
#1660=AXIS2_PLACEMENT_3D('',#1630,#1640,#1650);
#1670=CYLINDRICAL_SURFACE('',#1660,1.75);
#1680=CARTESIAN_POINT('',(37.25,54.,15.));
#1690=VERTEX_POINT('',#1680);
#1700=EDGE_CURVE('',#1550,#1690,#1350,.T.);
#1710=ORIENTED_EDGE('',*,*,#1700,.F.);
#1720=CARTESIAN_POINT('',(37.25,54.,0.));
#1730=DIRECTION('',(0.,0.,-1.));
#1740=VECTOR('',#1730,1.);
#1750=LINE('',#1720,#1740);
#1760=EDGE_CURVE('',#1690,#470,#1750,.T.);
#1770=ORIENTED_EDGE('',*,*,#1760,.F.);
#1780=ORIENTED_EDGE('',*,*,#760,.T.);
#1790=CARTESIAN_POINT('',(40.75,54.,0.));
#1800=DIRECTION('',(0.,0.,-1.));
#1810=VECTOR('',#1800,1.);
#1820=LINE('',#1790,#1810);
#1830=EDGE_CURVE('',#1390,#560,#1820,.T.);
#1840=ORIENTED_EDGE('',*,*,#1830,.T.);
#1850=ORIENTED_EDGE('',*,*,#1580,.F.);
#1860=EDGE_LOOP('',(#1850,#1840,#1780,#1770,#1710));
#1870=FACE_OUTER_BOUND('',#1860,.T.);
#1880=ADVANCED_FACE('',(#1870),#1670,.F.);
#1890=CARTESIAN_POINT('',(39.,54.,18.));
#1900=DIRECTION('',(0.,0.,1.));
#1910=DIRECTION('',(-1.,0.,0.));
#1920=AXIS2_PLACEMENT_3D('',#1890,#1900,#1910);
#1930=CYLINDRICAL_SURFACE('',#1920,1.6);
#1940=CARTESIAN_POINT('',(37.4,54.,18.));
#1950=DIRECTION('',(0.,0.,1.));
#1960=VECTOR('',#1950,1.);
#1970=LINE('',#1940,#1960);
#1980=CARTESIAN_POINT('',(37.4,54.,18.3));
#1990=VERTEX_POINT('',#1980);
#2000=CARTESIAN_POINT('',(37.4,54.,25.));
#2010=VERTEX_POINT('',#2000);
#2020=EDGE_CURVE('',#1990,#2010,#1970,.T.);
#2030=ORIENTED_EDGE('',*,*,#2020,.T.);
#2040=CARTESIAN_POINT('',(39.,54.,18.3));
#2050=DIRECTION('',(0.,0.,1.));
#2060=DIRECTION('',(1.,0.,0.));
#2070=AXIS2_PLACEMENT_3D('',#2040,#2050,#2060);
#2080=CIRCLE('',#2070,1.6);
#2090=CARTESIAN_POINT('',(40.6,54.,18.3));
#2100=VERTEX_POINT('',#2090);
#2110=EDGE_CURVE('',#2100,#1990,#2080,.T.);
#2120=ORIENTED_EDGE('',*,*,#2110,.T.);
#2130=CARTESIAN_POINT('',(40.6,54.,18.));
#2140=DIRECTION('',(0.,0.,1.));
#2150=VECTOR('',#2140,1.);
#2160=LINE('',#2130,#2150);
#2170=CARTESIAN_POINT('',(40.6,54.,25.));
#2180=VERTEX_POINT('',#2170);
#2190=EDGE_CURVE('',#2100,#2180,#2160,.T.);
#2200=ORIENTED_EDGE('',*,*,#2190,.F.);
#2210=CARTESIAN_POINT('',(39.,54.,25.));
#2220=DIRECTION('',(0.,0.,1.));
#2230=DIRECTION('',(1.,0.,0.));
#2240=AXIS2_PLACEMENT_3D('',#2210,#2220,#2230);
#2250=CIRCLE('',#2240,1.6);
#2260=EDGE_CURVE('',#2180,#2010,#2250,.T.);
#2270=ORIENTED_EDGE('',*,*,#2260,.F.);
#2280=EDGE_LOOP('',(#2270,#2200,#2120,#2030));
#2290=FACE_OUTER_BOUND('',#2280,.T.);
#2300=ADVANCED_FACE('',(#2290),#1930,.T.);
#2310=CARTESIAN_POINT('',(39.,54.,26.));
#2320=DIRECTION('',(0.,0.,1.));
#2330=DIRECTION('',(-1.,0.,0.));
#2340=AXIS2_PLACEMENT_3D('',#2310,#2320,#2330);
#2350=PLANE('',#2340);
#2360=CARTESIAN_POINT('',(39.,54.,26.));
#2370=DIRECTION('',(0.,0.,1.));
#2380=DIRECTION('',(1.,0.,0.));
#2390=AXIS2_PLACEMENT_3D('',#2360,#2370,#2380);
#2400=CIRCLE('',#2390,0.600000000000001);
#2410=CARTESIAN_POINT('',(38.4,54.,26.));
#2420=VERTEX_POINT('',#2410);
#2430=CARTESIAN_POINT('',(39.6,54.,26.));
#2440=VERTEX_POINT('',#2430);
#2450=EDGE_CURVE('',#2420,#2440,#2400,.T.);
#2460=ORIENTED_EDGE('',*,*,#2450,.T.);
#2470=EDGE_CURVE('',#2440,#2420,#2400,.T.);
#2480=ORIENTED_EDGE('',*,*,#2470,.T.);
#2490=EDGE_LOOP('',(#2480,#2460));
#2500=FACE_OUTER_BOUND('',#2490,.T.);
#2510=ADVANCED_FACE('',(#2500),#2350,.T.);
#2520=CARTESIAN_POINT('',(0.,0.,18.));
#2530=DIRECTION('',(0.,0.,1.));
#2540=DIRECTION('',(1.,0.,0.));
#2550=AXIS2_PLACEMENT_3D('',#2520,#2530,#2540);
#2560=PLANE('',#2550);
#2570=CARTESIAN_POINT('',(39.,54.,18.));
#2580=DIRECTION('',(0.,0.,1.));
#2590=DIRECTION('',(1.,0.,0.));
#2600=AXIS2_PLACEMENT_3D('',#2570,#2580,#2590);
#2610=CIRCLE('',#2600,1.9);
#2620=CARTESIAN_POINT('',(37.1,54.,18.));
#2630=VERTEX_POINT('',#2620);
#2640=CARTESIAN_POINT('',(40.9,54.,18.));
#2650=VERTEX_POINT('',#2640);
#2660=EDGE_CURVE('',#2630,#2650,#2610,.T.);
#2670=ORIENTED_EDGE('',*,*,#2660,.F.);
#2680=EDGE_CURVE('',#2650,#2630,#2610,.T.);
#2690=ORIENTED_EDGE('',*,*,#2680,.F.);
#2700=EDGE_LOOP('',(#2690,#2670));
#2710=FACE_BOUND('',#2700,.T.);
#2720=EDGE_CURVE('',#930,#1130,#1200,.T.);
#2730=ORIENTED_EDGE('',*,*,#2720,.T.);
#2740=ORIENTED_EDGE('',*,*,#1210,.T.);
#2750=EDGE_LOOP('',(#2740,#2730));
#2760=FACE_OUTER_BOUND('',#2750,.T.);
#2770=ADVANCED_FACE('',(#2710,#2760),#2560,.T.);
#2780=CARTESIAN_POINT('',(39.,54.,18.3));
#2790=DIRECTION('',(0.,0.,1.));
#2800=DIRECTION('',(1.,0.,0.));
#2810=AXIS2_PLACEMENT_3D('',#2780,#2790,#2800);
#2820=TOROIDAL_SURFACE('',#2810,1.9,0.3);
#2830=CARTESIAN_POINT('',(37.1,54.,18.3));
#2840=DIRECTION('',(0.,-1.,0.));
#2850=DIRECTION('',(-1.,0.,0.));
#2860=AXIS2_PLACEMENT_3D('',#2830,#2840,#2850);
#2870=CIRCLE('',#2860,0.3);
#2880=EDGE_CURVE('',#2630,#1990,#2870,.T.);
#2890=ORIENTED_EDGE('',*,*,#2880,.T.);
#2900=ORIENTED_EDGE('',*,*,#2680,.T.);
#2910=CARTESIAN_POINT('',(40.9,54.,18.3));
#2920=DIRECTION('',(0.,1.,0.));
#2930=DIRECTION('',(1.,0.,0.));
#2940=AXIS2_PLACEMENT_3D('',#2910,#2920,#2930);
#2950=CIRCLE('',#2940,0.3);
#2960=EDGE_CURVE('',#2650,#2100,#2950,.T.);
#2970=ORIENTED_EDGE('',*,*,#2960,.F.);
#2980=ORIENTED_EDGE('',*,*,#2110,.F.);
#2990=EDGE_LOOP('',(#2980,#2970,#2900,#2890));
#3000=FACE_OUTER_BOUND('',#2990,.T.);
#3010=ADVANCED_FACE('',(#3000),#2820,.F.);
#3020=CARTESIAN_POINT('',(39.,54.,25.));
#3030=DIRECTION('',(0.,0.,1.));
#3040=DIRECTION('',(1.,0.,0.));
#3050=AXIS2_PLACEMENT_3D('',#3020,#3030,#3040);
#3060=DEGENERATE_TOROIDAL_SURFACE('',#3050,0.600000000000001,1.,.T.);
#3070=CARTESIAN_POINT('',(38.4,54.,25.));
#3080=DIRECTION('',(0.,-1.,0.));
#3090=DIRECTION('',(-1.,0.,0.));
#3100=AXIS2_PLACEMENT_3D('',#3070,#3080,#3090);
#3110=CIRCLE('',#3100,1.);
#3120=EDGE_CURVE('',#2420,#2010,#3110,.T.);
#3130=ORIENTED_EDGE('',*,*,#3120,.F.);
#3140=ORIENTED_EDGE('',*,*,#2260,.T.);
#3150=CARTESIAN_POINT('',(39.6,54.,25.));
#3160=DIRECTION('',(0.,1.,0.));
#3170=DIRECTION('',(1.,0.,0.));
#3180=AXIS2_PLACEMENT_3D('',#3150,#3160,#3170);
#3190=CIRCLE('',#3180,1.);
#3200=EDGE_CURVE('',#2440,#2180,#3190,.T.);
#3210=ORIENTED_EDGE('',*,*,#3200,.T.);
#3220=ORIENTED_EDGE('',*,*,#2470,.F.);
#3230=EDGE_LOOP('',(#3220,#3210,#3140,#3130));
#3240=FACE_OUTER_BOUND('',#3230,.T.);
#3250=ADVANCED_FACE('',(#3240),#3060,.T.);
#3260=CARTESIAN_POINT('',(39.,54.,14.0473720558371));
#3270=DIRECTION('',(0.,0.,-1.));
#3280=DIRECTION('',(0.,-1.,0.));
#3290=AXIS2_PLACEMENT_3D('',#3260,#3270,#3280);
#3300=CONICAL_SURFACE('',#3290,3.4,1.0471975511966);
#3310=EDGE_CURVE('',#1690,#1370,#1350,.T.);
#3320=ORIENTED_EDGE('',*,*,#3310,.T.);
#3330=ORIENTED_EDGE('',*,*,#1700,.T.);
#3340=ORIENTED_EDGE('',*,*,#1560,.T.);
#3350=ORIENTED_EDGE('',*,*,#1480,.F.);
#3360=EDGE_LOOP('',(#3350,#3340,#3330,#3320));
#3370=FACE_OUTER_BOUND('',#3360,.T.);
#3380=ADVANCED_FACE('',(#3370),#3300,.F.);
#3390=CARTESIAN_POINT('',(39.,54.,18.));
#3400=DIRECTION('',(0.,0.,1.));
#3410=DIRECTION('',(-1.,0.,0.));
#3420=AXIS2_PLACEMENT_3D('',#3390,#3400,#3410);
#3430=CYLINDRICAL_SURFACE('',#3420,1.6);
#3440=EDGE_CURVE('',#2010,#2180,#2250,.T.);
#3450=ORIENTED_EDGE('',*,*,#3440,.F.);
#3460=ORIENTED_EDGE('',*,*,#2190,.T.);
#3470=EDGE_CURVE('',#1990,#2100,#2080,.T.);
#3480=ORIENTED_EDGE('',*,*,#3470,.T.);
#3490=ORIENTED_EDGE('',*,*,#2020,.F.);
#3500=EDGE_LOOP('',(#3490,#3480,#3460,#3450));
#3510=FACE_OUTER_BOUND('',#3500,.T.);
#3520=ADVANCED_FACE('',(#3510),#3430,.T.);
#3530=CARTESIAN_POINT('',(39.,54.,0.));
#3540=DIRECTION('',(0.,0.,-1.));
#3550=DIRECTION('',(1.,0.,0.));
#3560=AXIS2_PLACEMENT_3D('',#3530,#3540,#3550);
#3570=CYLINDRICAL_SURFACE('',#3560,1.75);
#3580=ORIENTED_EDGE('',*,*,#1760,.T.);
#3590=ORIENTED_EDGE('',*,*,#3310,.F.);
#3600=ORIENTED_EDGE('',*,*,#1400,.F.);
#3610=ORIENTED_EDGE('',*,*,#1830,.F.);
#3620=ORIENTED_EDGE('',*,*,#570,.T.);
#3630=EDGE_LOOP('',(#3620,#3610,#3600,#3590,#3580));
#3640=FACE_OUTER_BOUND('',#3630,.T.);
#3650=ADVANCED_FACE('',(#3640),#3570,.F.);
#3660=CARTESIAN_POINT('',(39.,54.,25.));
#3670=DIRECTION('',(0.,0.,1.));
#3680=DIRECTION('',(1.,0.,0.));
#3690=AXIS2_PLACEMENT_3D('',#3660,#3670,#3680);
#3700=DEGENERATE_TOROIDAL_SURFACE('',#3690,0.600000000000001,1.,.T.);
#3710=ORIENTED_EDGE('',*,*,#3440,.T.);
#3720=ORIENTED_EDGE('',*,*,#3120,.T.);
#3730=ORIENTED_EDGE('',*,*,#2450,.F.);
#3740=ORIENTED_EDGE('',*,*,#3200,.F.);
#3750=EDGE_LOOP('',(#3740,#3730,#3720,#3710));
#3760=FACE_OUTER_BOUND('',#3750,.T.);
#3770=ADVANCED_FACE('',(#3760),#3700,.T.);
#3780=CARTESIAN_POINT('',(39.,54.,18.3));
#3790=DIRECTION('',(0.,0.,1.));
#3800=DIRECTION('',(1.,0.,0.));
#3810=AXIS2_PLACEMENT_3D('',#3780,#3790,#3800);
#3820=TOROIDAL_SURFACE('',#3810,1.9,0.3);
#3830=ORIENTED_EDGE('',*,*,#2660,.T.);
#3840=ORIENTED_EDGE('',*,*,#2880,.F.);
#3850=ORIENTED_EDGE('',*,*,#3470,.F.);
#3860=ORIENTED_EDGE('',*,*,#2960,.T.);
#3870=EDGE_LOOP('',(#3860,#3850,#3840,#3830));
#3880=FACE_OUTER_BOUND('',#3870,.T.);
#3890=ADVANCED_FACE('',(#3880),#3820,.F.);
#3900=CARTESIAN_POINT('',(39.,54.,17.7));
#3910=DIRECTION('',(0.,0.,1.));
#3920=DIRECTION('',(1.,0.,0.));
#3930=AXIS2_PLACEMENT_3D('',#3900,#3910,#3920);
#3940=TOROIDAL_SURFACE('',#3930,2.95,0.3);
#3950=ORIENTED_EDGE('',*,*,#2720,.F.);
#3960=ORIENTED_EDGE('',*,*,#1140,.F.);
#3970=EDGE_CURVE('',#950,#1040,#1020,.T.);
#3980=ORIENTED_EDGE('',*,*,#3970,.T.);
#3990=ORIENTED_EDGE('',*,*,#960,.T.);
#4000=EDGE_LOOP('',(#3990,#3980,#3960,#3950));
#4010=FACE_OUTER_BOUND('',#4000,.T.);
#4020=ADVANCED_FACE('',(#4010),#3940,.T.);
#4030=CARTESIAN_POINT('',(39.,54.,0.));
#4040=DIRECTION('',(0.,0.,1.));
#4050=DIRECTION('',(1.,0.,0.));
#4060=AXIS2_PLACEMENT_3D('',#4030,#4040,#4050);
#4070=CYLINDRICAL_SURFACE('',#4060,3.25);
#4080=CARTESIAN_POINT('',(42.25,54.,0.));
#4090=DIRECTION('',(0.,0.,1.));
#4100=VECTOR('',#4090,1.);
#4110=LINE('',#4080,#4100);
#4120=EDGE_CURVE('',#270,#950,#4110,.T.);
#4130=ORIENTED_EDGE('',*,*,#4120,.T.);
#4140=ORIENTED_EDGE('',*,*,#320,.T.);
#4150=CARTESIAN_POINT('',(35.75,54.,0.));
#4160=DIRECTION('',(0.,0.,1.));
#4170=VECTOR('',#4160,1.);
#4180=LINE('',#4150,#4170);
#4190=EDGE_CURVE('',#290,#1040,#4180,.T.);
#4200=ORIENTED_EDGE('',*,*,#4190,.F.);
#4210=ORIENTED_EDGE('',*,*,#1050,.F.);
#4220=EDGE_LOOP('',(#4210,#4200,#4140,#4130));
#4230=FACE_OUTER_BOUND('',#4220,.T.);
#4240=ADVANCED_FACE('',(#4230),#4070,.T.);
#4250=CARTESIAN_POINT('',(39.,54.,0.));
#4260=DIRECTION('',(0.,0.,1.));
#4270=DIRECTION('',(1.,0.,0.));
#4280=AXIS2_PLACEMENT_3D('',#4250,#4260,#4270);
#4290=CYLINDRICAL_SURFACE('',#4280,3.25);
#4300=ORIENTED_EDGE('',*,*,#3970,.F.);
#4310=ORIENTED_EDGE('',*,*,#4190,.T.);
#4320=ORIENTED_EDGE('',*,*,#300,.T.);
#4330=ORIENTED_EDGE('',*,*,#4120,.F.);
#4340=EDGE_LOOP('',(#4330,#4320,#4310,#4300));
#4350=FACE_OUTER_BOUND('',#4340,.T.);
#4360=ADVANCED_FACE('',(#4350),#4290,.T.);
#4370=CLOSED_SHELL('',(#4240,#4360,#1250,#1620,#1880,#2300,#2510,#2770,
#3010,#3250,#3380,#3520,#3650,#3770,#3890,#4020,#360,#680,#810));
#4380=MANIFOLD_SOLID_BREP('',#4370);
#4390=CARTESIAN_POINT('',(0.,0.,0.));
#4400=DIRECTION('',(0.,0.,1.));
#4410=DIRECTION('',(1.,0.,0.));
#4420=AXIS2_PLACEMENT_3D('',#4390,#4400,#4410);
#4430=APPLICATION_CONTEXT(' ');
#4440=APPLICATION_PROTOCOL_DEFINITION(' ','automotive_design',1998,#4430
);
#4450=PRODUCT_CONTEXT('',#4430,'mechanical');
#4460=PRODUCT_DEFINITION_CONTEXT('part definition',#4430,'design');
#4470=PRODUCT('CGT_6.0','CGT_6.0','',(#4450));
#4480=PRODUCT_RELATED_PRODUCT_CATEGORY('part',' ',(#4470));
#4490=PRODUCT_DEFINITION_FORMATION_WITH_SPECIFIED_SOURCE('','',#4470,
.BOUGHT.);
#4500=PRODUCT_DEFINITION('',' ',#4490,#4460);
#4510=PRODUCT_DEFINITION_SHAPE('','',#4500);
#4520=DIMENSIONAL_EXPONENTS(1.,0.,0.,0.,0.,0.,0.);
#4530=DIMENSIONAL_EXPONENTS(0.,0.,0.,0.,0.,0.,0.);
#4540=DIMENSIONAL_EXPONENTS(0.,0.,0.,0.,0.,0.,0.);
#4550=(LENGTH_UNIT() NAMED_UNIT(*) SI_UNIT(.MILLI.,.METRE.));
#4560=(NAMED_UNIT(*) PLANE_ANGLE_UNIT() SI_UNIT($,.RADIAN.));
#4570=(NAMED_UNIT(*) SI_UNIT($,.STERADIAN.) SOLID_ANGLE_UNIT());
#4580=(GEOMETRIC_REPRESENTATION_CONTEXT(3) 
GLOBAL_UNCERTAINTY_ASSIGNED_CONTEXT((#4590)) 
GLOBAL_UNIT_ASSIGNED_CONTEXT((#4550,#4560,#4570)) REPRESENTATION_CONTEXT
('',''));
#4590=UNCERTAINTY_MEASURE_WITH_UNIT(LENGTH_MEASURE(1.E-6),#4550,
'distance_accuracy_value','maximum gap value');
#4600=ADVANCED_BREP_SHAPE_REPRESENTATION('',(#4420,#4380),#4580);
#4610=SHAPE_DEFINITION_REPRESENTATION(#4510,#4600);
#4620=COLOUR_RGB('',0.784313797950745,0.784313797950745,
0.784313797950745);
#4630=FILL_AREA_STYLE_COLOUR('',#4620);
#4640=FILL_AREA_STYLE('',(#4630));
#4650=SURFACE_STYLE_FILL_AREA(#4640);
#4660=SURFACE_SIDE_STYLE('',(#4650));
#4670=SURFACE_STYLE_USAGE(.BOTH.,#4660);
#4680=PRESENTATION_STYLE_ASSIGNMENT((#4670));
#4690=STYLED_ITEM('',(#4680),#4380);
#4700=DRAUGHTING_MODEL('',(#4690),#4580);
ENDSEC;
END-ISO-10303-21;
